ISO-10303-21;
HEADER;
FILE_DESCRIPTION (( 'STEP AP203' ),
    '1' );
FILE_NAME ('Q-AZHWP-10-1064-M.STEP',
    '2020-12-22T09:05:22',
    ( '' ),
    ( '' ),
    'SwSTEP 2.0',
    'SolidWorks 2020',
    '' );
FILE_SCHEMA (( 'CONFIG_CONTROL_DESIGN' ));
ENDSEC;

DATA;
#1 = APPROVAL_PERSON_ORGANIZATION ( #161, #175, #219 ) ;
#2 = PERSON_AND_ORGANIZATION ( #135, #258 ) ;
#3 = FACE_BOUND ( 'NONE', #227, .T. ) ;
#4 = COORDINATED_UNIVERSAL_TIME_OFFSET ( 8, 0, .AHEAD. ) ;
#5 = CARTESIAN_POINT ( 'NONE',  ( -1.250000000000000222, 6.123233995736767268E-16, -5.000000000000000888 ) ) ;
#6 = DIRECTION ( 'NONE',  ( 0.000000000000000000, 0.000000000000000000, 1.000000000000000000 ) ) ;
#7 = EDGE_CURVE ( 'NONE', #145, #48, #298, .T. ) ;
#8 = APPLICATION_PROTOCOL_DEFINITION ( 'international standard', 'config_control_design', 1994, #287 ) ;
#9 = LOCAL_TIME ( 17, 5, 22.00000000000000000, #164 ) ;
#10 = DIRECTION ( 'NONE',  ( 0.000000000000000000, 0.000000000000000000, 1.000000000000000000 ) ) ;
#11 = CARTESIAN_POINT ( 'NONE',  ( 3.000000000000000000, 0.000000000000000000, 0.000000000000000000 ) ) ;
#12 = PERSON_AND_ORGANIZATION ( #135, #258 ) ;
#13 = CYLINDRICAL_SURFACE ( 'NONE', #280, 5.000000000000000888 ) ;
#14 = CIRCLE ( 'NONE', #78, 12.69999999999999929 ) ;
#15 = COORDINATED_UNIVERSAL_TIME_OFFSET ( 8, 0, .AHEAD. ) ;
#16 = DIRECTION ( 'NONE',  ( -1.000000000000000000, -0.000000000000000000, -0.000000000000000000 ) ) ;
#17 = PERSON_AND_ORGANIZATION_ROLE ( 'classification_officer' ) ;
#18 = CC_DESIGN_DATE_AND_TIME_ASSIGNMENT ( #19, #190, ( #84 ) ) ;
#19 = DATE_AND_TIME ( #91, #9 ) ;
#20 = EDGE_CURVE ( 'NONE', #249, #303, #245, .T. ) ;
#21 = ORIENTED_EDGE ( 'NONE', *, *, #239, .T. ) ;
#22 = VECTOR ( 'NONE', #88, 1000.000000000000000 ) ;
#23 = CC_DESIGN_PERSON_AND_ORGANIZATION_ASSIGNMENT ( #92, #94, ( #143 ) ) ;
#24 = ORIENTED_EDGE ( 'NONE', *, *, #206, .T. ) ;
#25 = CARTESIAN_POINT ( 'NONE',  ( -3.000000000000000000, 1.555301434917138433E-15, -12.69999999999999929 ) ) ;
#26 = ORIENTED_EDGE ( 'NONE', *, *, #20, .T. ) ;
#27 = AXIS2_PLACEMENT_3D ( 'NONE', #153, #185, #136 ) ;
#28 = ORIENTED_EDGE ( 'NONE', *, *, #42, .F. ) ;
#29 = ORIENTED_EDGE ( 'NONE', *, *, #114, .T. ) ;
#30 =( NAMED_UNIT ( * ) SI_UNIT ( $, .STERADIAN. ) SOLID_ANGLE_UNIT ( ) );
#31 = AXIS2_PLACEMENT_3D ( 'NONE', #75, #168, #118 ) ;
#32 = DIRECTION ( 'NONE',  ( -1.000000000000000000, 0.000000000000000000, -0.000000000000000000 ) ) ;
#33 = DATE_TIME_ROLE ( 'creation_date' ) ;
#34 = CARTESIAN_POINT ( 'NONE',  ( 3.000000000000000000, 12.69999999999999929, 0.000000000000000000 ) ) ;
#35 = CARTESIAN_POINT ( 'NONE',  ( -1.614212418857619014, 0.000000000000000000, 0.000000000000000000 ) ) ;
#36 = ORIENTED_EDGE ( 'NONE', *, *, #149, .T. ) ;
#37 = APPROVAL ( #105, 'UNSPECIFIED' ) ;
#38 = DIRECTION ( 'NONE',  ( 0.000000000000000000, 0.000000000000000000, 1.000000000000000000 ) ) ;
#39 = CLOSED_SHELL ( 'NONE', ( #101, #308, #333, #70, #167, #198, #86, #291, #60, #270 ) ) ;
#40 = CARTESIAN_POINT ( 'NONE',  ( -3.000000000000000000, 0.000000000000000000, 5.000000000000000000 ) ) ;
#41 = LINE ( 'NONE', #327, #22 ) ;
#42 = EDGE_CURVE ( 'NONE', #120, #249, #176, .T. ) ;
#43 = CIRCLE ( 'NONE', #228, 5.000000000000000888 ) ;
#44 = CALENDAR_DATE ( 2020, 22, 12 ) ;
#45 = EDGE_CURVE ( 'NONE', #48, #55, #125, .T. ) ;
#46 = CARTESIAN_POINT ( 'NONE',  ( -3.000000000000000000, 0.000000000000000000, 0.000000000000000000 ) ) ;
#47 = CARTESIAN_POINT ( 'NONE',  ( -1.614212418857619014, 0.000000000000000000, 5.000000000000000888 ) ) ;
#48 = VERTEX_POINT ( 'NONE', #259 ) ;
#49 = CC_DESIGN_APPROVAL ( #175, ( #84 ) ) ;
#50 = ORIENTED_EDGE ( 'NONE', *, *, #201, .T. ) ;
#51 = DESIGN_CONTEXT ( 'detailed design', #309, 'design' ) ;
#52 = ORIENTED_EDGE ( 'NONE', *, *, #288, .F. ) ;
#53 =( GEOMETRIC_REPRESENTATION_CONTEXT ( 3 ) GLOBAL_UNCERTAINTY_ASSIGNED_CONTEXT ( ( #173 ) ) GLOBAL_UNIT_ASSIGNED_CONTEXT ( ( #237, #313, #30 ) ) REPRESENTATION_CONTEXT ( 'NONE', 'WORKASPACE' ) );
#54 = FACE_BOUND ( 'NONE', #57, .T. ) ;
#55 = VERTEX_POINT ( 'NONE', #236 ) ;
#56 = CARTESIAN_POINT ( 'NONE',  ( -1.614212418857619014, 6.123233995736767268E-16, -5.000000000000000888 ) ) ;
#57 = EDGE_LOOP ( 'NONE', ( #240, #166 ) ) ;
#58 = APPROVAL_DATE_TIME ( #282, #37 ) ;
#59 = PERSON_AND_ORGANIZATION_ROLE ( 'design_owner' ) ;
#60 = ADVANCED_FACE ( 'NONE', ( #276, #54 ), #156, .F. ) ;
#61 = DIRECTION ( 'NONE',  ( 0.000000000000000000, 0.000000000000000000, 1.000000000000000000 ) ) ;
#62 = AXIS2_PLACEMENT_3D ( 'NONE', #253, #194, #300 ) ;
#63 = CARTESIAN_POINT ( 'NONE',  ( 3.000000000000000000, 0.000000000000000000, 0.000000000000000000 ) ) ;
#64 = AXIS2_PLACEMENT_3D ( 'NONE', #202, #83, #179 ) ;
#65 = CARTESIAN_POINT ( 'NONE',  ( -1.250000000000000222, 0.000000000000000000, 0.000000000000000000 ) ) ;
#66 = EDGE_CURVE ( 'NONE', #77, #303, #154, .T. ) ;
#67 = CARTESIAN_POINT ( 'NONE',  ( -3.000000000000000000, 0.000000000000000000, 12.69999999999999929 ) ) ;
#68 = PERSON_AND_ORGANIZATION ( #135, #258 ) ;
#69 = VERTEX_POINT ( 'NONE', #5 ) ;
#70 = ADVANCED_FACE ( 'NONE', ( #103 ), #261, .F. ) ;
#71 = DIRECTION ( 'NONE',  ( -1.000000000000000000, -0.000000000000000000, -0.000000000000000000 ) ) ;
#72 = ORIENTED_EDGE ( 'NONE', *, *, #20, .F. ) ;
#73 = FACE_OUTER_BOUND ( 'NONE', #85, .T. ) ;
#74 = ORIENTED_EDGE ( 'NONE', *, *, #170, .F. ) ;
#75 = CARTESIAN_POINT ( 'NONE',  ( -1.614212418857619014, 0.000000000000000000, 0.000000000000000000 ) ) ;
#76 = DIRECTION ( 'NONE',  ( 0.000000000000000000, 0.000000000000000000, -1.000000000000000000 ) ) ;
#77 = VERTEX_POINT ( 'NONE', #234 ) ;
#78 = AXIS2_PLACEMENT_3D ( 'NONE', #11, #191, #214 ) ;
#79 = LOCAL_TIME ( 17, 5, 22.00000000000000000, #213 ) ;
#80 = EDGE_LOOP ( 'NONE', ( #24, #122, #72, #28 ) ) ;
#81 = ORIENTED_EDGE ( 'NONE', *, *, #297, .F. ) ;
#82 = PERSON_AND_ORGANIZATION_ROLE ( 'creator' ) ;
#83 = DIRECTION ( 'NONE',  ( -1.000000000000000000, -0.000000000000000000, -0.000000000000000000 ) ) ;
#84 = SECURITY_CLASSIFICATION ( '', '', #295 ) ;
#85 = EDGE_LOOP ( 'NONE', ( #99, #256, #332, #74 ) ) ;
#86 = ADVANCED_FACE ( 'NONE', ( #3, #104 ), #208, .F. ) ;
#87 = DIRECTION ( 'NONE',  ( 0.000000000000000000, 0.000000000000000000, 1.000000000000000000 ) ) ;
#88 = DIRECTION ( 'NONE',  ( -1.000000000000000000, -0.000000000000000000, -0.000000000000000000 ) ) ;
#89 = CARTESIAN_POINT ( 'NONE',  ( -3.000000000000000000, 6.123233995736766282E-16, -5.000000000000000000 ) ) ;
#90 = CARTESIAN_POINT ( 'NONE',  ( -1.614212418857619014, 0.000000000000000000, 0.000000000000000000 ) ) ;
#91 = CALENDAR_DATE ( 2020, 22, 12 ) ;
#92 = PERSON_AND_ORGANIZATION ( #135, #258 ) ;
#93 = FACE_OUTER_BOUND ( 'NONE', #134, .T. ) ;
#94 = PERSON_AND_ORGANIZATION_ROLE ( 'creator' ) ;
#95 = APPROVAL ( #108, 'UNSPECIFIED' ) ;
#96 = ORIENTED_EDGE ( 'NONE', *, *, #216, .F. ) ;
#97 = ORIENTED_EDGE ( 'NONE', *, *, #248, .F. ) ;
#98 = AXIS2_PLACEMENT_3D ( 'NONE', #265, #163, #138 ) ;
#99 = ORIENTED_EDGE ( 'NONE', *, *, #66, .F. ) ;
#100 = DIRECTION ( 'NONE',  ( -1.000000000000000000, -0.000000000000000000, -0.000000000000000000 ) ) ;
#101 = ADVANCED_FACE ( 'NONE', ( #267 ), #109, .T. ) ;
#102 = LOCAL_TIME ( 17, 5, 22.00000000000000000, #316 ) ;
#103 = FACE_OUTER_BOUND ( 'NONE', #229, .T. ) ;
#104 = FACE_OUTER_BOUND ( 'NONE', #272, .T. ) ;
#105 = APPROVAL_STATUS ( 'not_yet_approved' ) ;
#106 = CARTESIAN_POINT ( 'NONE',  ( 1.250000000000000222, 5.000000000000000000, 0.000000000000000000 ) ) ;
#107 = CARTESIAN_POINT ( 'NONE',  ( 3.000000000000000000, 0.000000000000000000, 5.000000000000001776 ) ) ;
#108 = APPROVAL_STATUS ( 'not_yet_approved' ) ;
#109 = CYLINDRICAL_SURFACE ( 'NONE', #171, 12.69999999999999929 ) ;
#110 = CARTESIAN_POINT ( 'NONE',  ( -1.614212418857619014, 0.000000000000000000, 5.000000000000000888 ) ) ;
#111 = DIRECTION ( 'NONE',  ( 0.000000000000000000, 0.000000000000000000, -1.000000000000000000 ) ) ;
#112 = CC_DESIGN_APPROVAL ( #95, ( #220 ) ) ;
#113 = MANIFOLD_SOLID_BREP ( 'Ðý×', #39 ) ;
#114 = EDGE_CURVE ( 'NONE', #55, #318, #193, .T. ) ;
#115 = CARTESIAN_POINT ( 'NONE',  ( -1.614212418857619014, 0.000000000000000000, 0.000000000000000000 ) ) ;
#116 = DIRECTION ( 'NONE',  ( 0.000000000000000000, 0.000000000000000000, 1.000000000000000000 ) ) ;
#117 = PRODUCT_RELATED_PRODUCT_CATEGORY ( 'detail', '', ( #330 ) ) ;
#118 = DIRECTION ( 'NONE',  ( 0.000000000000000000, 0.000000000000000000, 1.000000000000000000 ) ) ;
#119 = CIRCLE ( 'NONE', #273, 12.69999999999999929 ) ;
#120 = VERTEX_POINT ( 'NONE', #285 ) ;
#121 = VERTEX_POINT ( 'NONE', #40 ) ;
#122 = ORIENTED_EDGE ( 'NONE', *, *, #66, .T. ) ;
#123 = VECTOR ( 'NONE', #132, 1000.000000000000000 ) ;
#124 = ORIENTED_EDGE ( 'NONE', *, *, #266, .T. ) ;
#125 = LINE ( 'NONE', #56, #148 ) ;
#126 = PERSON_AND_ORGANIZATION ( #135, #258 ) ;
#127 = DIRECTION ( 'NONE',  ( -1.000000000000000000, -0.000000000000000000, -0.000000000000000000 ) ) ;
#128 = CIRCLE ( 'NONE', #290, 12.69999999999999929 ) ;
#129 = AXIS2_PLACEMENT_3D ( 'NONE', #200, #100, #307 ) ;
#130 = DIRECTION ( 'NONE',  ( -0.000000000000000000, 0.000000000000000000, 1.000000000000000000 ) ) ;
#131 = DIRECTION ( 'NONE',  ( -1.000000000000000000, -0.000000000000000000, -0.000000000000000000 ) ) ;
#132 = DIRECTION ( 'NONE',  ( -1.000000000000000000, -0.000000000000000000, -0.000000000000000000 ) ) ;
#133 = CARTESIAN_POINT ( 'NONE',  ( 1.250000000000000444, 0.000000000000000000, 5.000000000000000000 ) ) ;
#134 = EDGE_LOOP ( 'NONE', ( #96, #81 ) ) ;
#135 = PERSON ( 'UNSPECIFIED', 'UNSPECIFIED', 'UNSPECIFIED', ('UNSPECIFIED'), ('UNSPECIFIED'), ('UNSPECIFIED') ) ;
#136 = DIRECTION ( 'NONE',  ( 1.000000000000000000, 0.000000000000000000, 0.000000000000000000 ) ) ;
#137 = DIRECTION ( 'NONE',  ( 0.000000000000000000, 0.000000000000000000, 1.000000000000000000 ) ) ;
#138 = DIRECTION ( 'NONE',  ( 0.000000000000000000, 0.000000000000000000, 1.000000000000000000 ) ) ;
#139 = DIRECTION ( 'NONE',  ( 1.000000000000000000, 0.000000000000000000, 0.000000000000000000 ) ) ;
#140 = SHAPE_DEFINITION_REPRESENTATION ( #279, #142 ) ;
#141 = CYLINDRICAL_SURFACE ( 'NONE', #177, 5.000000000000000888 ) ;
#142 = ADVANCED_BREP_SHAPE_REPRESENTATION ( 'Q-AZHWP-10-1064-M', ( #113, #27 ), #53 ) ;
#143 = PRODUCT_DEFINITION_FORMATION_WITH_SPECIFIED_SOURCE ( 'ANY', '', #330, .NOT_KNOWN. ) ;
#144 = ORIENTED_EDGE ( 'NONE', *, *, #7, .F. ) ;
#145 = VERTEX_POINT ( 'NONE', #107 ) ;
#146 = PLANE ( 'NONE',  #62 ) ;
#147 = ORIENTED_EDGE ( 'NONE', *, *, #239, .F. ) ;
#148 = VECTOR ( 'NONE', #127, 1000.000000000000000 ) ;
#149 = EDGE_CURVE ( 'NONE', #121, #180, #304, .T. ) ;
#150 = VERTEX_POINT ( 'NONE', #268 ) ;
#151 = DATE_AND_TIME ( #320, #79 ) ;
#152 = CARTESIAN_POINT ( 'NONE',  ( -1.614212418857619014, 0.000000000000000000, 12.69999999999999929 ) ) ;
#153 = CARTESIAN_POINT ( 'NONE',  ( 0.000000000000000000, 0.000000000000000000, 0.000000000000000000 ) ) ;
#154 = LINE ( 'NONE', #283, #123 ) ;
#155 = CC_DESIGN_APPROVAL ( #37, ( #143 ) ) ;
#156 = PLANE ( 'NONE',  #269 ) ;
#157 = CALENDAR_DATE ( 2020, 22, 12 ) ;
#158 = DIRECTION ( 'NONE',  ( -1.000000000000000000, -0.000000000000000000, -0.000000000000000000 ) ) ;
#159 = EDGE_CURVE ( 'NONE', #48, #145, #250, .T. ) ;
#160 = DIRECTION ( 'NONE',  ( -1.000000000000000000, -0.000000000000000000, -0.000000000000000000 ) ) ;
#161 = PERSON_AND_ORGANIZATION ( #135, #258 ) ;
#162 = DIRECTION ( 'NONE',  ( -1.000000000000000000, -0.000000000000000000, -0.000000000000000000 ) ) ;
#163 = DIRECTION ( 'NONE',  ( -1.000000000000000000, -0.000000000000000000, -0.000000000000000000 ) ) ;
#164 = COORDINATED_UNIVERSAL_TIME_OFFSET ( 8, 0, .AHEAD. ) ;
#165 = CARTESIAN_POINT ( 'NONE',  ( 1.250000000000000444, 0.000000000000000000, 0.000000000000000000 ) ) ;
#166 = ORIENTED_EDGE ( 'NONE', *, *, #159, .T. ) ;
#167 = ADVANCED_FACE ( 'NONE', ( #215 ), #141, .F. ) ;
#168 = DIRECTION ( 'NONE',  ( -1.000000000000000000, -0.000000000000000000, -0.000000000000000000 ) ) ;
#169 = EDGE_LOOP ( 'NONE', ( #197, #50, #329, #147 ) ) ;
#170 = EDGE_CURVE ( 'NONE', #303, #249, #119, .T. ) ;
#171 = AXIS2_PLACEMENT_3D ( 'NONE', #263, #218, #137 ) ;
#172 = AXIS2_PLACEMENT_3D ( 'NONE', #302, #158, #6 ) ;
#173 = UNCERTAINTY_MEASURE_WITH_UNIT (LENGTH_MEASURE( 1.000000000000000082E-05 ), #237, 'distance_accuracy_value', 'NONE');
#174 = EDGE_LOOP ( 'NONE', ( #224, #301, #29, #315 ) ) ;
#175 = APPROVAL ( #293, 'UNSPECIFIED' ) ;
#176 = LINE ( 'NONE', #152, #178 ) ;
#177 = AXIS2_PLACEMENT_3D ( 'NONE', #90, #319, #242 ) ;
#178 = VECTOR ( 'NONE', #281, 1000.000000000000000 ) ;
#179 = DIRECTION ( 'NONE',  ( 0.000000000000000000, 0.000000000000000000, 1.000000000000000000 ) ) ;
#180 = VERTEX_POINT ( 'NONE', #89 ) ;
#181 = CC_DESIGN_PERSON_AND_ORGANIZATION_ASSIGNMENT ( #12, #324, ( #143 ) ) ;
#182 = VECTOR ( 'NONE', #289, 1000.000000000000000 ) ;
#183 = CARTESIAN_POINT ( 'NONE',  ( -3.000000000000000000, 5.000000000000000000, 0.000000000000000000 ) ) ;
#184 = CARTESIAN_POINT ( 'NONE',  ( 3.000000000000000000, 0.000000000000000000, 0.000000000000000000 ) ) ;
#185 = DIRECTION ( 'NONE',  ( 0.000000000000000000, 0.000000000000000000, 1.000000000000000000 ) ) ;
#186 = CC_DESIGN_DATE_AND_TIME_ASSIGNMENT ( #257, #33, ( #220 ) ) ;
#187 = LINE ( 'NONE', #110, #182 ) ;
#188 = LOCAL_TIME ( 17, 5, 22.00000000000000000, #15 ) ;
#189 = CARTESIAN_POINT ( 'NONE',  ( -3.000000000000000000, 0.000000000000000000, 0.000000000000000000 ) ) ;
#190 = DATE_TIME_ROLE ( 'classification_date' ) ;
#191 = DIRECTION ( 'NONE',  ( -1.000000000000000000, -0.000000000000000000, -0.000000000000000000 ) ) ;
#192 = DATE_AND_TIME ( #44, #188 ) ;
#193 = CIRCLE ( 'NONE', #264, 5.000000000000000000 ) ;
#194 = DIRECTION ( 'NONE',  ( 1.000000000000000000, 0.000000000000000000, 0.000000000000000000 ) ) ;
#195 = ORIENTED_EDGE ( 'NONE', *, *, #45, .F. ) ;
#196 = DIRECTION ( 'NONE',  ( 1.000000000000000000, 0.000000000000000000, 0.000000000000000000 ) ) ;
#197 = ORIENTED_EDGE ( 'NONE', *, *, #216, .T. ) ;
#198 = ADVANCED_FACE ( 'NONE', ( #241 ), #13, .F. ) ;
#199 = EDGE_LOOP ( 'NONE', ( #252, #97 ) ) ;
#200 = CARTESIAN_POINT ( 'NONE',  ( 3.000000000000000000, 0.000000000000000000, 0.000000000000000000 ) ) ;
#201 = EDGE_CURVE ( 'NONE', #69, #180, #41, .T. ) ;
#202 = CARTESIAN_POINT ( 'NONE',  ( -3.000000000000000000, 0.000000000000000000, 0.000000000000000000 ) ) ;
#203 = CIRCLE ( 'NONE', #98, 5.000000000000000000 ) ;
#204 = APPROVAL_ROLE ( '' ) ;
#205 = VECTOR ( 'NONE', #328, 1000.000000000000000 ) ;
#206 = EDGE_CURVE ( 'NONE', #120, #77, #14, .T. ) ;
#207 = MECHANICAL_CONTEXT ( 'NONE', #287, 'mechanical' ) ;
#208 = PLANE ( 'NONE',  #326 ) ;
#209 = APPROVAL_ROLE ( '' ) ;
#210 = ORIENTED_EDGE ( 'NONE', *, *, #201, .F. ) ;
#211 = DIRECTION ( 'NONE',  ( -1.000000000000000000, -0.000000000000000000, -0.000000000000000000 ) ) ;
#212 = CC_DESIGN_PERSON_AND_ORGANIZATION_ASSIGNMENT ( #2, #59, ( #330 ) ) ;
#213 = COORDINATED_UNIVERSAL_TIME_OFFSET ( 8, 0, .AHEAD. ) ;
#214 = DIRECTION ( 'NONE',  ( 0.000000000000000000, 0.000000000000000000, 1.000000000000000000 ) ) ;
#215 = FACE_OUTER_BOUND ( 'NONE', #274, .T. ) ;
#216 = EDGE_CURVE ( 'NONE', #150, #69, #232, .T. ) ;
#217 = APPROVAL_PERSON_ORGANIZATION ( #286, #95, #204 ) ;
#218 = DIRECTION ( 'NONE',  ( -1.000000000000000000, -0.000000000000000000, -0.000000000000000000 ) ) ;
#219 = APPROVAL_ROLE ( '' ) ;
#220 = PRODUCT_DEFINITION ( 'UNKNOWN', '', #143, #51 ) ;
#221 = CARTESIAN_POINT ( 'NONE',  ( -3.000000000000000000, 0.000000000000000000, 0.000000000000000000 ) ) ;
#222 = CYLINDRICAL_SURFACE ( 'NONE', #31, 12.69999999999999929 ) ;
#223 = AXIS2_PLACEMENT_3D ( 'NONE', #106, #32, #130 ) ;
#224 = ORIENTED_EDGE ( 'NONE', *, *, #159, .F. ) ;
#225 = CYLINDRICAL_SURFACE ( 'NONE', #172, 5.000000000000000888 ) ;
#226 = CARTESIAN_POINT ( 'NONE',  ( -1.250000000000000222, 0.000000000000000000, 0.000000000000000000 ) ) ;
#227 = EDGE_LOOP ( 'NONE', ( #231, #52 ) ) ;
#228 = AXIS2_PLACEMENT_3D ( 'NONE', #226, #196, #76 ) ;
#229 = EDGE_LOOP ( 'NONE', ( #271, #254 ) ) ;
#230 = ORIENTED_EDGE ( 'NONE', *, *, #297, .T. ) ;
#231 = ORIENTED_EDGE ( 'NONE', *, *, #149, .F. ) ;
#232 = CIRCLE ( 'NONE', #244, 5.000000000000000888 ) ;
#233 = CC_DESIGN_SECURITY_CLASSIFICATION ( #84, ( #143 ) ) ;
#234 = CARTESIAN_POINT ( 'NONE',  ( 3.000000000000000000, 1.555301434917138433E-15, -12.69999999999999929 ) ) ;
#235 = PERSON_AND_ORGANIZATION ( #135, #258 ) ;
#236 = CARTESIAN_POINT ( 'NONE',  ( 1.250000000000000444, 6.123233995736766282E-16, -5.000000000000000000 ) ) ;
#237 =( LENGTH_UNIT ( ) NAMED_UNIT ( * ) SI_UNIT ( .MILLI., .METRE. ) );
#238 = FACE_OUTER_BOUND ( 'NONE', #174, .T. ) ;
#239 = EDGE_CURVE ( 'NONE', #150, #121, #187, .T. ) ;
#240 = ORIENTED_EDGE ( 'NONE', *, *, #7, .T. ) ;
#241 = FACE_OUTER_BOUND ( 'NONE', #275, .T. ) ;
#242 = DIRECTION ( 'NONE',  ( 0.000000000000000000, 0.000000000000000000, 1.000000000000000000 ) ) ;
#243 = DIRECTION ( 'NONE',  ( 0.000000000000000000, 0.000000000000000000, -1.000000000000000000 ) ) ;
#244 = AXIS2_PLACEMENT_3D ( 'NONE', #65, #321, #111 ) ;
#245 = CIRCLE ( 'NONE', #64, 12.69999999999999929 ) ;
#246 = DIRECTION ( 'NONE',  ( 0.000000000000000000, 0.000000000000000000, 1.000000000000000000 ) ) ;
#247 = APPROVAL_DATE_TIME ( #192, #175 ) ;
#248 = EDGE_CURVE ( 'NONE', #77, #120, #128, .T. ) ;
#249 = VERTEX_POINT ( 'NONE', #67 ) ;
#250 = CIRCLE ( 'NONE', #310, 5.000000000000001776 ) ;
#251 = FACE_OUTER_BOUND ( 'NONE', #169, .T. ) ;
#252 = ORIENTED_EDGE ( 'NONE', *, *, #206, .F. ) ;
#253 = CARTESIAN_POINT ( 'NONE',  ( -1.250000000000000222, 5.000000000000000000, 0.000000000000000000 ) ) ;
#254 = ORIENTED_EDGE ( 'NONE', *, *, #114, .F. ) ;
#255 = DIRECTION ( 'NONE',  ( -0.000000000000000000, 0.000000000000000000, 1.000000000000000000 ) ) ;
#256 = ORIENTED_EDGE ( 'NONE', *, *, #248, .T. ) ;
#257 = DATE_AND_TIME ( #278, #305 ) ;
#258 = ORGANIZATION ( 'UNSPECIFIED', 'UNSPECIFIED', '' ) ;
#259 = CARTESIAN_POINT ( 'NONE',  ( 3.000000000000000000, 6.123233995736768255E-16, -5.000000000000001776 ) ) ;
#260 = CYLINDRICAL_SURFACE ( 'NONE', #299, 5.000000000000000888 ) ;
#261 = PLANE ( 'NONE',  #223 ) ;
#262 = APPLICATION_PROTOCOL_DEFINITION ( 'international standard', 'config_control_design', 1994, #309 ) ;
#263 = CARTESIAN_POINT ( 'NONE',  ( -1.614212418857619014, 0.000000000000000000, 0.000000000000000000 ) ) ;
#264 = AXIS2_PLACEMENT_3D ( 'NONE', #165, #296, #38 ) ;
#265 = CARTESIAN_POINT ( 'NONE',  ( 1.250000000000000444, 0.000000000000000000, 0.000000000000000000 ) ) ;
#266 = EDGE_CURVE ( 'NONE', #318, #55, #203, .T. ) ;
#267 = FACE_OUTER_BOUND ( 'NONE', #80, .T. ) ;
#268 = CARTESIAN_POINT ( 'NONE',  ( -1.250000000000000222, 0.000000000000000000, 5.000000000000000888 ) ) ;
#269 = AXIS2_PLACEMENT_3D ( 'NONE', #34, #311, #255 ) ;
#270 = ADVANCED_FACE ( 'NONE', ( #93 ), #146, .F. ) ;
#271 = ORIENTED_EDGE ( 'NONE', *, *, #266, .F. ) ;
#272 = EDGE_LOOP ( 'NONE', ( #26, #277 ) ) ;
#273 = AXIS2_PLACEMENT_3D ( 'NONE', #221, #160, #246 ) ;
#274 = EDGE_LOOP ( 'NONE', ( #195, #144, #334, #124 ) ) ;
#275 = EDGE_LOOP ( 'NONE', ( #210, #230, #21, #36 ) ) ;
#276 = FACE_OUTER_BOUND ( 'NONE', #199, .T. ) ;
#277 = ORIENTED_EDGE ( 'NONE', *, *, #170, .T. ) ;
#278 = CALENDAR_DATE ( 2020, 22, 12 ) ;
#279 = PRODUCT_DEFINITION_SHAPE ( 'NONE', 'NONE',  #220 ) ;
#280 = AXIS2_PLACEMENT_3D ( 'NONE', #115, #16, #10 ) ;
#281 = DIRECTION ( 'NONE',  ( -1.000000000000000000, -0.000000000000000000, -0.000000000000000000 ) ) ;
#282 = DATE_AND_TIME ( #157, #102 ) ;
#283 = CARTESIAN_POINT ( 'NONE',  ( -1.614212418857619014, 1.555301434917138433E-15, -12.69999999999999929 ) ) ;
#284 = CC_DESIGN_PERSON_AND_ORGANIZATION_ASSIGNMENT ( #126, #82, ( #220 ) ) ;
#285 = CARTESIAN_POINT ( 'NONE',  ( 3.000000000000000000, 0.000000000000000000, 12.69999999999999929 ) ) ;
#286 = PERSON_AND_ORGANIZATION ( #135, #258 ) ;
#287 = APPLICATION_CONTEXT ( 'configuration controlled 3d designs of mechanical parts and assemblies' ) ;
#288 = EDGE_CURVE ( 'NONE', #180, #121, #323, .T. ) ;
#289 = DIRECTION ( 'NONE',  ( -1.000000000000000000, -0.000000000000000000, -0.000000000000000000 ) ) ;
#290 = AXIS2_PLACEMENT_3D ( 'NONE', #63, #162, #294 ) ;
#291 = ADVANCED_FACE ( 'NONE', ( #73 ), #222, .T. ) ;
#292 = DIRECTION ( 'NONE',  ( -1.000000000000000000, -0.000000000000000000, -0.000000000000000000 ) ) ;
#293 = APPROVAL_STATUS ( 'not_yet_approved' ) ;
#294 = DIRECTION ( 'NONE',  ( 0.000000000000000000, 0.000000000000000000, 1.000000000000000000 ) ) ;
#295 = SECURITY_CLASSIFICATION_LEVEL ( 'unclassified' ) ;
#296 = DIRECTION ( 'NONE',  ( -1.000000000000000000, -0.000000000000000000, -0.000000000000000000 ) ) ;
#297 = EDGE_CURVE ( 'NONE', #69, #150, #43, .T. ) ;
#298 = CIRCLE ( 'NONE', #129, 5.000000000000001776 ) ;
#299 = AXIS2_PLACEMENT_3D ( 'NONE', #35, #131, #87 ) ;
#300 = DIRECTION ( 'NONE',  ( 0.000000000000000000, 0.000000000000000000, -1.000000000000000000 ) ) ;
#301 = ORIENTED_EDGE ( 'NONE', *, *, #45, .T. ) ;
#302 = CARTESIAN_POINT ( 'NONE',  ( -1.614212418857619014, 0.000000000000000000, 0.000000000000000000 ) ) ;
#303 = VERTEX_POINT ( 'NONE', #25 ) ;
#304 = CIRCLE ( 'NONE', #325, 5.000000000000000000 ) ;
#305 = LOCAL_TIME ( 17, 5, 22.00000000000000000, #4 ) ;
#306 = EDGE_CURVE ( 'NONE', #145, #318, #331, .T. ) ;
#307 = DIRECTION ( 'NONE',  ( 0.000000000000000000, 0.000000000000000000, 1.000000000000000000 ) ) ;
#308 = ADVANCED_FACE ( 'NONE', ( #251 ), #225, .F. ) ;
#309 = APPLICATION_CONTEXT ( 'configuration controlled 3d designs of mechanical parts and assemblies' ) ;
#310 = AXIS2_PLACEMENT_3D ( 'NONE', #184, #211, #322 ) ;
#311 = DIRECTION ( 'NONE',  ( -1.000000000000000000, 0.000000000000000000, -0.000000000000000000 ) ) ;
#312 = APPROVAL_PERSON_ORGANIZATION ( #235, #37, #209 ) ;
#313 =( NAMED_UNIT ( * ) PLANE_ANGLE_UNIT ( ) SI_UNIT ( $, .RADIAN. ) );
#314 = APPROVAL_DATE_TIME ( #151, #95 ) ;
#315 = ORIENTED_EDGE ( 'NONE', *, *, #306, .F. ) ;
#316 = COORDINATED_UNIVERSAL_TIME_OFFSET ( 8, 0, .AHEAD. ) ;
#317 = CC_DESIGN_PERSON_AND_ORGANIZATION_ASSIGNMENT ( #68, #17, ( #84 ) ) ;
#318 = VERTEX_POINT ( 'NONE', #133 ) ;
#319 = DIRECTION ( 'NONE',  ( -1.000000000000000000, -0.000000000000000000, -0.000000000000000000 ) ) ;
#320 = CALENDAR_DATE ( 2020, 22, 12 ) ;
#321 = DIRECTION ( 'NONE',  ( 1.000000000000000000, 0.000000000000000000, 0.000000000000000000 ) ) ;
#322 = DIRECTION ( 'NONE',  ( 0.000000000000000000, 0.000000000000000000, 1.000000000000000000 ) ) ;
#323 = CIRCLE ( 'NONE', #335, 5.000000000000000000 ) ;
#324 = PERSON_AND_ORGANIZATION_ROLE ( 'design_supplier' ) ;
#325 = AXIS2_PLACEMENT_3D ( 'NONE', #189, #292, #61 ) ;
#326 = AXIS2_PLACEMENT_3D ( 'NONE', #183, #139, #243 ) ;
#327 = CARTESIAN_POINT ( 'NONE',  ( -1.614212418857619014, 6.123233995736767268E-16, -5.000000000000000888 ) ) ;
#328 = DIRECTION ( 'NONE',  ( -1.000000000000000000, -0.000000000000000000, -0.000000000000000000 ) ) ;
#329 = ORIENTED_EDGE ( 'NONE', *, *, #288, .T. ) ;
#330 = PRODUCT ( 'Q-AZHWP-10-1064-M', 'Q-AZHWP-10-1064-M', '', ( #207 ) ) ;
#331 = LINE ( 'NONE', #47, #205 ) ;
#332 = ORIENTED_EDGE ( 'NONE', *, *, #42, .T. ) ;
#333 = ADVANCED_FACE ( 'NONE', ( #238 ), #260, .F. ) ;
#334 = ORIENTED_EDGE ( 'NONE', *, *, #306, .T. ) ;
#335 = AXIS2_PLACEMENT_3D ( 'NONE', #46, #71, #116 ) ;
ENDSEC;
END-ISO-10303-21;
